AVATARDS UNITE!

Group options
Add to favorites
Forward to a friend

Tabs to a couple nomad songs!

SlayingDragons

I, being a big fan of both the guitar and avatar, (Not the shitty Pocahontas remake,) tabbed out a couple of the songs that the guy is playing in this video: http://www.youtube.com/watch?v=AN9rbfvq1dA

(copypasta!)

Song at 0:56:

e|-------------------------| (Repeat 7x)
B|-------------------------|
G|-------------------------|
D|-----0-0-0h2-2-2-----|
A|-0-----------------------|
E|------------------------ -|

Then:

e|-------------------------| (Repeat until fade out)
B|-------------------------|
G|-------------------------|
D|-----2-2-2h4-4-4-----|
A|-2-----------------------|
E|------------------------ -|

As for the first song, this is what I have:

e|-----------------------------| (repeat 6-7 times)
B|-5--7-s-10--7-5-----5-----|
G|---------------------6-----6--|
D|-------------------------------|
A|-------------------------------|
E|-------------------------------|

I believe it then goes:

e|-----------------------0-0-0-0----|
B|------------1-1-1-1-1-1-1-1----|
G|-2-2-2-2-2-2-2-2-2-2-2-2-----|
D|------------------------------------|
A|------------------------------------|
E|------------------------------------|

Then repeats the first riff.

Why'd I make a thread about it? Well, 1, to show it to you guys, and 2. for improvements/modifications/a place for people to dump any tabs they have for avatar songs/a place to request tabs for songs from avatar.

If you have any requests for stringed instrument tabs from songs from the show, don't be afraid to ask! I'm sure me and some other guitar players in this group would enjoy tabbing it.


I, being a big fan of both the guitar and avatar, (Not the shitty Pocahontas remake,) tabbed out a couple of the songs that the guy is playing in this video: http://www.youtube.com/watch?v=AN9rbfvq1dA

(copypasta!)

Song at 0:56:

e|-------------------------| (Repeat 7x)
B|-------------------------|
G|-------------------------|
D|-----0-0-0h2-2-2-----|
A|-0-----------------------|
E|------------------------ -|

Then:

e|-------------------------| (Repeat until fade out)
B|-------------------------|
G|-------------------------|
D|-----2-2-2h4-4-4-----|
A|-2-----------------------|
E|------------------------ -|

As for the first song, this is what I have:

e|-----------------------------| (repeat 6-7 times)
B|-5--7-s-10--7-5-----5-----|
G|---------------------6-----6--|
D|-------------------------------|
A|-------------------------------|
E|-------------------------------|

I believe it then goes:

e|-----------------------0-0-0-0----|
B|------------1-1-1-1-1-1-1-1----|
G|-2-2-2-2-2-2-2-2-2-2-2-2-----|
D|------------------------------------|
A|------------------------------------|
E|------------------------------------|

Then repeats the first riff.

Why'd I make a thread about it? Well, 1, to show it to you guys, and 2. for improvements/modifications/a place for people to dump any tabs they have for avatar songs/a place to request tabs for songs from avatar.

If you have any requests for stringed instrument tabs from songs from the show, don't be afraid to ask! I'm sure me and some other guitar players in this group would enjoy tabbing it.


Posted: Aug 6, 2010 7:12 AM - Quote - Report!

Metallica1554

Thanks dude! I'll try these out later and report back!
I suck at figuring out music by ear
Thanks dude! I'll try these out later and report back! I suck at figuring out music by ear
Posted: Aug 6, 2010 11:43 AM - Quote - Report!

PhillyHendrix

Leaves From Vine? (Also known as Brave Soldier Boy)

Also, Secret Tunnel.
Leaves From Vine? (Also known as Brave Soldier Boy)

Also, Secret Tunnel.
Posted: Aug 6, 2010 4:51 PM - Quote - Report!

SlayingDragons

Here is Leaves from the Vine!

(More copypasta! Can't be arsed to re-type the entire thing.)

Ok, here we go, Leaves From The Vine.

______________This 9 be moved up to 10. V (For bending ease.)
e|------------------------------|--------------- --------------------------------|
B|------------------------------|--------------- --------------------------------|
G|------9--7-------------------|------9--7------ -----------------------------|
D|-7-----------9b(11)--------|-7-----------9b(11 )--9b(11b12r11)--7--|
A|-0----------------------------|-0------------- -------------------------------|
E|------------------------------|--------------- --------------------------------|



e|-------------------------------------------|
B|-------------------------------------------|
G|-------------------------------------------|
D|--9b(11)-9(hold bend)-r9--7--------|
A|----------------------------------0-------|
E|-------------------------------------------|

Then pretty much repeats.



Working on Secret Tunnel now.

Edit:

Never mind, there's already a tab for it.

http://tabs.ultimate-guitar.com/m/misc_cartoons/av atar_the_last_airbender_-_tale_of_two_lovers_secre t_tunnel_tab.htm
Here is Leaves from the Vine!

(More copypasta! Can't be arsed to re-type the entire thing.)

Ok, here we go, Leaves From The Vine.

______________This 9 be moved up to 10. V (For bending ease.)
e|------------------------------|-----------------------------------------------|
B|------------------------------|-----------------------------------------------|
G|------9--7-------------------|------9--7-----------------------------------|
D|-7-----------9b(11)--------|-7-----------9b(11)--9b(11b12r11)--7--|
A|-0----------------------------|-0--------------------------------------------|
E|------------------------------|-----------------------------------------------|



e|-------------------------------------------|
B|-------------------------------------------|
G|-------------------------------------------|
D|--9b(11)-9(hold bend)-r9--7--------|
A|----------------------------------0-------|
E|-------------------------------------------|

Then pretty much repeats.



Working on Secret Tunnel now.

Edit:

Never mind, there's already a tab for it.

http://tabs.ultimate-guitar.com/m/misc_cartoons/avatar_the_last_airbender_-_tale_of_two_lovers_secret_tunnel_tab.htm
Posted: Aug 6, 2010 8:49 PM - Quote - Report!

Jon777

:cheers: Lovin' it.

I'll try recording some covers later today.
:cheers: Lovin' it. I'll try recording some covers later today.
Posted: Aug 6, 2010 9:02 PM - Quote - Report!

Jon777

SlayingDragons wrote on Aug 6th, 2010 at 2:12am :

As for the first song, this is what I have:



e|-----------------------------| (repeat 6-7 times)

B|-5--7-s-10--7-5-----5-----|

G|---------------------6-----6--|

D|-------------------------------|

A|-------------------------------|

E|-------------------------------|



I believe it then goes:



e|-----------------------0-0-0-0----|

B|------------1-1-1-1-1-1-1-1----|

G|-2-2-2-2-2-2-2-2-2-2-2-2-----|

D|------------------------------------|

A|------------------------------------|

E|------------------------------------|





Between those two parts (after he sings "into a frown"), there's a little something that goes:

e|--------------------------------|
B|-------2-----2-----2------2----|
G|----4-----4-----4-----4--------|
D|-------------------------------|
A|-------------------------------|
E|--------------------------------|
[QUOTE u='SlayingDragons' d='2010-08-06 02:12:28']
As for the first song, this is what I have:



e|-----------------------------| (repeat 6-7 times)

B|-5--7-s-10--7-5-----5-----|

G|---------------------6-----6--|

D|-------------------------------|

A|-------------------------------|

E|-------------------------------|



I believe it then goes:



e|-----------------------0-0-0-0----|

B|------------1-1-1-1-1-1-1-1----|

G|-2-2-2-2-2-2-2-2-2-2-2-2-----|

D|------------------------------------|

A|------------------------------------|

E|------------------------------------|



[/QUOTE]

Between those two parts (after he sings "into a frown"), there's a little something that goes:

e|--------------------------------|
B|-------2-----2-----2------2----|
G|----4-----4-----4-----4--------|
D|-------------------------------|
A|-------------------------------|
E|--------------------------------|
Posted: Aug 7, 2010 7:10 PM - Quote - Report!
Post your reply
Expand