Cosmic Quest

Group options
Add to favorites
Forward to a friend

Cosmic Riff Quest

spaceyhippie

Cosmic Riff Quest
you've been exploring the universe
present yer findings
Cosmic Riff Quest
you've been exploring the universe
present yer findings
Posted: Jul 23, 2008 5:20 PM - Quote - Report!

spaceyhippie

^^ ^^
|-875-575--
^^--^^-|-----------------|
|---------875-575-|--^^--^^---------|
|-----------------|-865-565--^^-----|

|-----------------|---------865-3---|
-3- -3- -3- -3- -3- -3- -3-


|-----------------|-----------------|-----------------|
|-------^^--------|-------^^--------|-----------------|
|--^^^-567-5------|--^^^-567-5---5--|------^^^--------|
|-0567------------|-0567-------7----|-7---76503-------|
-3- -3- -3- -3-




   ^^  ^^
|-875-575--
^^--^^-|-----------------|
|---------875-575-|--^^--^^---------|
|-----------------|-865-565--^^-----|

|-----------------|---------865-3---|
  -3- -3- -3- -3-   -3- -3- -3-


|-----------------|-----------------|-----------------|
|-------^^--------|-------^^--------|-----------------|
|--^^^-567-5------|--^^^-567-5---5--|------^^^--------|
|-0567------------|-0567-------7----|-7---76503-------|
   -3- -3-          -3- -3-




Posted: Jul 23, 2008 5:32 PM - Quote - Report!
Post your reply
Expand